Instruções


Iniciante





( O objetivo deste curso é fornecer aos iniciantes algumas dicas fundamentais para um bom começo com o instrumento.
Se você já tem certa intimidade com a guitarra, por favor, tenha paciência que aos poucos vamos colocando aqui coisas mais aprofundadas.
Iremos passar conteúdos para iniciantes até profissionais da área, portanto, paciência aos mais avançados quando for tratado assuntos básicos é fundamental! )

Introdução à Música aplicada ao Violão e a Guitarra Elétrica

I. Cordas do Violão e da Guitarra

Conta-se as cordas de baixo para cima nesta ordem:
1ª - Mi
2ª - Si
3ª - Sol
4ª - Ré
5ª - Lá
6ª - Mi

II. Simbologia dos dedos da mão direita

p - Polegar
i - Indicador
m - Médio
a - Anular

( Além dos dedos da mão direita, na Guitarra elétrica usamos a palheta (Com mais freqüência).
Inicialmente, o movimento da palheta tem de ser alternado, isto é, atacando a corda de baixo para cima e depois de cima para baixo.
Existem outros movimentos de palheta, tanto alternado quanto "Sweep", mas trataremos deste assunto mais adiante. )

III. Simbologia dos dedos da mão esquerda

1 - Indicador
2 - Médio
3 - Anular
4 - Mínimo

O polegar da mão esquerda deve situar atrás do braço do instrumento como função de apoio,
mais ou menos a noventa graus em relação à base do braço, evitando aparecer em relação à pessoa que está à sua frente.


Escalas

Uma escala musical é  um grupo de notas musicais que derivam,
em parte ou no todo,do material escrito de uma composição
musical; uma seqüência ordenada de tons pela freqüência
vibratória de sons, (normalmente do som de freqüência
mais baixa para o de freqüência mais alta), que consiste
na manutenção de determinados intervalos entre as suas notas.

ALGUNS EXEMPLOS DE ESCALAS.
(Elas não estão nomeadas.São só exemplos.Você também pode usar
escalas como um modo de pegar agilidade para os dedos).


E|-------------------------------3-5-6-|
B|-------------------------3-5-6-------|
G|-------------------2-3-5-------------|
D|-------------2-3-5-------------------|
A|-------1-3-5-------------------------|
E|-1-3-5-------------------------------|



E|-------------------------------5-7-8-|
B|-------------------------5-7-8-------|
G|-------------------4-5-7-------------|
D|-------------4-5-7-------------------|
A|-------3-5-7-------------------------|
E|-3-5-7-------------------------------|



E|--------------------------1234-------|
B|---------------------1234------------|
G|----------------1234-----------------|
D|-----------1234----------------------|
A|------1234---------------------------|
E|-1234--------------------------------|


Tablatura


  • COMO LER UMA TABLATURA?
E|------------------------------------------------------------|
B|------------------------------------------------------------|
G|------------------------------------------------------------|
D|------------------------------------------------------------|
A|------------------------------------------------------------|
E|---0---1---2---3--------------------------------------------|

O exemplo acima indica as seguintes notas na ordem:
 * corda mais grossa deve ser tocada solta                 (0)
 * depois a mesma corda deve ser tocada no primeiro traste (1)
 * depois a mesma corda deve ser tocada no segundo traste  (2)
 * depois a mesma corda deve ser tocada no terceiro traste (3)


O exemplo acima é o início da música Smoke On The Water do Deep Purple.

Além dos números que apenas indicam qual corda deve ser ferida em
qual casa (traste) existem algumas letras e simbolos comumente usadas
para notar determinadas técnicas. Essas notações podem variar um pouco
de autor para autor mas as mais comuns são:

h - hammer-on
p - pull-off

B|- bend para cima ou para baixo

r - soltar o bend
/ - slide para cima (pode ser usado s)
\ - slide para baixo (pode ser usado s)
~ - vibrato (pode ser usado v)
t - tap (ou tapping)
x - tocar a nota abafada (som percursivo)

Hammer-on ou h
Um hammer-on consiste em martelar com um dedo da mão esquerda
uma corda em um traste fazendo soar a nota sem o auxílio da mão
direita,por isso se chama hammer-on,porque em português "hammer”
significa "martelar”.

E|------------------------------------------------------------|
B|------------------------------------------------------------|
G|------------------------------------------------------------|
D|------------------------------------------------------------|
A|---------6h7-----------4h7----------------------------------|
E|---0--0----------0--0---------------------------------------|


Pull-Offs ou p
Pull-Offs são de certa forma o inverso de um hammer-on e consistem
em soltar rapidamente uma corda fazendo com que a mesma soe solta
(ou apertada em um traste anterior).


E|----3p0-----------------------------------------------------|
B|---------3p0------------------------------------------------|
G|--------------2p0-------------------------------------------|
D|-------------------2----------------------------------------|
A|------------------------------------------------------------|
E|------------------------------------------------------------|


Hammer-ons e pull-offs costumam ser usados em conjunto como
indicado abaixo:

E|------------------------------------------------------------|
B|------------------------------------------------------------|
G|---2h4p2h4p2h4p2h4p2h4p2------------------------------------|
D|------------------------------------------------------------|
A|------------------------------------------------------------|
E|------------------------------------------------------------|

Bends ou b
Um bend consiste em empurrar uma corda para cima aumentando a
tensão e consequentemente gerando uma nota mais aguda. Quanto
mais empurrada for a corda,maior será o efeito. Um número é
usado para indicar o quanto a nota deve ser aumentada.

E|------------------------------------------------------------|
B|------7b9---------------------------------------------------|
G|------------------------------------------------------------|
D|------------------------------------------------------------|
A|------------------------------------------------------------|
E|------------------------------------------------------------|


No exemplo acima a corda (si) deve ser tocada no sétimo traste
e empurrada para cima até que soe mais aguda como se estivesse
apertada no nono traste (um tom acima). Note que o dedo do
musico continuara na sétima casa. O bend pode também ser indicado
entre parênteses como 7b(9).

E|------------------------------------------------------------|
B|------7b9--9r7----------------------------------------------|
G|------------------------------------------------------------|
D|------------------------------------------------------------|
A|------------------------------------------------------------|
E|------------------------------------------------------------|


Slides ou (s ou /).
Um slide consiste em fazer deslizar um dedo da mão esquerda
pelo braço enquanto uma corda soa gerando uma variação do tom.

E|------------------------------------------------------------|
B|------7/9---------------------------------------------------|
G|------------------------------------------------------------|
D|------------------------------------------------------------|
A|------------------------------------------------------------|
E|------------------------------------------------------------|


O exemplo acima indica que a corda deve ser tocada na sétima
casa e imediatamente o dedo que aperta a corda nesta casa deve
deslizar para a nona casa enquanto a nota continua soando
(aumentando então um tom).
Não necessariamente o início e o fim de um slide precisam ser indicados:


E|------------------------------------------------------------|
B|------/7--7\------------------------------------------------|
G|------------------------------------------------------------|
D|------------------------------------------------------------|
A|------------------------------------------------------------|
E|------------------------------------------------------------|


Vários slides podem ser usados seguidos como indicado abaixo.
Apenas a primeira nota precisa ser tocada.

E|------------------------------------------------------------|
B|------7/9/11\9\7\6\7----------------------------------------|
G|------------------------------------------------------------|
D|------------------------------------------------------------|
A|------------------------------------------------------------|
E|------------------------------------------------------------|


Vibrato ou (v ou ~).

O vibrato é o efeito de variação de tom conseguido com a
alavanca ou mesmo através de pressão variável do dedo sobre
a corda no braço do instrumento (vide músicos de blues).

E|------------------------------------------------------------|
B|------------------------------------------------------------|
G|------------------------------------------------------------|
D|-------2--5~------------------------------------------------|
A|----3-------------------------------------------------------|
E|------------------------------------------------------------|


Uso da Alavanca

Asa vezes para o som ficar mudado em certas
quantidades de tom,se usa a alavanca.O uso da
alavanca é representado na tablatura como (^).
Obs:Não é sempre que o "^" é alavanca.Às vezes
ele pode ser usado como bend.


E|------------------------------------------------------------|
B|-13^^^^^^^^^^15---------------------------------------------|
G|------------------------------------------------------------|
D|------------------------------------------------------------|
A|------------------------------------------------------------|
E|------------------------------------------------------------|


Tap ou (T ou t ou tapping).
Tap ou tapping consiste em fazer soar notas
tocadas com a mão direita apertando as cordas
nos trastes. É técnica geralmente usada por
guitarristas rápidos como Eddie Van Hallen
entre outros. A indicação de que uma nota
deve ser tocada como tap consiste apenas
em acrescentar a letra t à nota correspondente.
Geralmente são efetuadas na parte mais interna do braço do instrumento.


E|------------------------------------------------------------|
B|----13t-----------------------------------------------------|
G|---------12t------------------------------------------------|
D|--------------12t-------------------------------------------|
A|------------------------------------------------------------|
E|------------------------------------------------------------|


Ex:

   T         T        T        T        T        T        T        T
E|-19p15p12--19p15p12-19p15p12-19p15p12-19p15p12-19p15p12-19p15p12-19p15p12-|
B|--------------------------------------------------------------------------|
G|--------------------------------------------------------------------------|
D|--------------------------------------------------------------------------|
A|--------------------------------------------------------------------------|
E|--------------------------------------------------------------------------|


Símbolos Nas Tablaturas


I. Duração das notas

Para quem não consegue entender aqueles W,H,Q,E,S,T e X, esses símbolos são duração da nota.

Nome           | Símbolo | Partitura | Pausa | Duração
‾‾‾‾‾‾‾‾‾‾‾‾‾‾‾‾‾‾‾‾‾‾‾‾‾‾‾‾‾‾‾‾‾‾‾‾‾‾‾‾‾‾‾‾‾‾‾‾‾‾‾‾‾‾‾‾‾‾‾‾‾‾‾‾‾‾‾‾‾‾‾‾‾‾‾‾‾‾‾‾‾
Semibreve      | W       |           |       | 1 nota por tempo
Mínima         | H       |           |       | 2 notas por tempo
Semi-mínima    | Q       |           |       | 4 notas por tempo
Colcheia       | E       |           |       | 8 notas por tempo
Semicolcheia   | S       |           |       | 16 notas por tempo
Fusa           | T       |           |       | 32 notas por tempo
Semifusa       | X       |           |       | 64 notas por tempo

II. Símbolos

Para quem não consegue entender aqueles p,h,b,br,/, e outros, eu vou explicar.

Nome           | Símbolo | O que quer dizer?
‾‾‾‾‾‾‾‾‾‾‾‾‾‾‾‾‾‾‾‾‾‾‾‾‾‾‾‾‾‾‾‾‾‾‾‾‾‾‾‾‾‾‾‾‾‾‾‾‾‾‾‾‾‾‾‾‾‾‾‾‾‾‾‾‾‾‾‾‾‾‾‾‾‾‾‾‾‾‾‾‾
Hammer-on      | h       | Toca a nota e "martela outra sem palhetar”.
Pull-off       | p       | Toca a nota e "martela a nota anterior”.
Bend           | b       | Toca a nota e levanta a corda mudando 1 tom
Bend Release   | br      | Toca a nota levanta a corda e desce a corda
Slide          | s ou /  | Toca uma nota e escorrega o para a casa.
Palm Mute      | PM ou X | Toca a nota abafando a corda
Vibrato        | ~ ou ^  | Toca a nota e faz ela vibrar
Ligado         | ^ ou L  | Toca a nota e sobe/desce a alavanca.
Tapping        | T       | Toca a nota e toca com a mão direita

Tem outros.

Exemplos:
PM                                       ...               T

E|-------------------------------------------------------------|
B|-------------------------------------------------------------|
G|-------------------------------------------------------------|
D|-------------------------------------------------------------|
A|-5h7---7p5---5b7-5b6---5br---5/7-7/5---5-7---5~---5L---5h12--|
E|-------------------------------------------------------------|


Print Friendly and PDF